ISO-10303-21;
HEADER;
FILE_DESCRIPTION (( 'STEP AP203' ),
    '1' );
FILE_NAME ('Q-OZHWP-R2-20-795-M.STEP',
    '2020-12-22T09:17:15',
    ( '' ),
    ( '' ),
    'SwSTEP 2.0',
    'SolidWorks 2020',
    '' );
FILE_SCHEMA (( 'CONFIG_CONTROL_DESIGN' ));
ENDSEC;

DATA;
#1 = AXIS2_PLACEMENT_3D ( 'NONE', #307, #61, #282 ) ;
#2 = COORDINATED_UNIVERSAL_TIME_OFFSET ( 8, 0, .AHEAD. ) ;
#3 = COORDINATED_UNIVERSAL_TIME_OFFSET ( 8, 0, .AHEAD. ) ;
#4 = LOCAL_TIME ( 17, 17, 15.00000000000000000, #2 ) ;
#5 = ORIENTED_EDGE ( 'NONE', *, *, #101, .F. ) ;
#6 = SHAPE_DEFINITION_REPRESENTATION ( #110, #258 ) ;
#7 = ORIENTED_EDGE ( 'NONE', *, *, #272, .T. ) ;
#8 = APPROVAL ( #179, 'UNSPECIFIED' ) ;
#9 = CARTESIAN_POINT ( 'NONE',  ( -3.000000000000000000, 0.000000000000000000, 0.000000000000000000 ) ) ;
#10 = CARTESIAN_POINT ( 'NONE',  ( 2.999999999999999112, 1.224646799147353256E-15, -10.00000000000000000 ) ) ;
#11 = AXIS2_PLACEMENT_3D ( 'NONE', #19, #226, #328 ) ;
#12 = ORIENTED_EDGE ( 'NONE', *, *, #86, .T. ) ;
#13 = DIRECTION ( 'NONE',  ( -1.000000000000000000, 0.000000000000000000, -0.000000000000000000 ) ) ;
#14 = CARTESIAN_POINT ( 'NONE',  ( 2.999999999999999112, 0.000000000000000000, 0.000000000000000000 ) ) ;
#15 = CARTESIAN_POINT ( 'NONE',  ( 2.500000000000000444, 10.00000000000000000, 0.000000000000000000 ) ) ;
#16 = LOCAL_TIME ( 17, 17, 15.00000000000000000, #186 ) ;
#17 = DIRECTION ( 'NONE',  ( 0.000000000000000000, 0.000000000000000000, -1.000000000000000000 ) ) ;
#18 = CARTESIAN_POINT ( 'NONE',  ( -3.000000000000000444, 0.000000000000000000, 10.00000000000000000 ) ) ;
#19 = CARTESIAN_POINT ( 'NONE',  ( 3.000000000000000000, 0.000000000000000000, 0.000000000000000000 ) ) ;
#20 = MECHANICAL_CONTEXT ( 'NONE', #261, 'mechanical' ) ;
#21 = APPROVAL_STATUS ( 'not_yet_approved' ) ;
#22 = AXIS2_PLACEMENT_3D ( 'NONE', #271, #34, #27 ) ;
#23 = EDGE_LOOP ( 'NONE', ( #181, #191, #200, #161 ) ) ;
#24 = CC_DESIGN_PERSON_AND_ORGANIZATION_ASSIGNMENT ( #255, #93, ( #39 ) ) ;
#25 = EDGE_LOOP ( 'NONE', ( #262, #259, #240, #46 ) ) ;
#26 = AXIS2_PLACEMENT_3D ( 'NONE', #310, #111, #196 ) ;
#27 = DIRECTION ( 'NONE',  ( 0.000000000000000000, 0.000000000000000000, 1.000000000000000000 ) ) ;
#28 = ORIENTED_EDGE ( 'NONE', *, *, #265, .F. ) ;
#29 = APPROVAL_DATE_TIME ( #129, #154 ) ;
#30 = CARTESIAN_POINT ( 'NONE',  ( -1.614212418857619014, 1.555301434917138433E-15, -12.69999999999999929 ) ) ;
#31 = ORIENTED_EDGE ( 'NONE', *, *, #101, .T. ) ;
#32 = CARTESIAN_POINT ( 'NONE',  ( 2.500000000000000888, 1.224646799147353256E-15, -10.00000000000000000 ) ) ;
#33 = EDGE_CURVE ( 'NONE', #124, #290, #234, .T. ) ;
#34 = DIRECTION ( 'NONE',  ( -1.000000000000000000, -0.000000000000000000, -0.000000000000000000 ) ) ;
#35 = AXIS2_PLACEMENT_3D ( 'NONE', #230, #315, #44 ) ;
#36 = PLANE ( 'NONE',  #204 ) ;
#37 = CYLINDRICAL_SURFACE ( 'NONE', #26, 10.00000000000000000 ) ;
#38 = FACE_OUTER_BOUND ( 'NONE', #209, .T. ) ;
#39 = PRODUCT_DEFINITION_FORMATION_WITH_SPECIFIED_SOURCE ( 'ANY', '', #87, .NOT_KNOWN. ) ;
#40 = APPROVAL_ROLE ( '' ) ;
#41 = PERSON_AND_ORGANIZATION_ROLE ( 'design_owner' ) ;
#42 = COORDINATED_UNIVERSAL_TIME_OFFSET ( 8, 0, .AHEAD. ) ;
#43 = DIRECTION ( 'NONE',  ( -1.000000000000000000, -0.000000000000000000, -0.000000000000000000 ) ) ;
#44 = DIRECTION ( 'NONE',  ( 0.000000000000000000, 0.000000000000000000, 1.000000000000000000 ) ) ;
#45 = EDGE_LOOP ( 'NONE', ( #269, #335 ) ) ;
#46 = ORIENTED_EDGE ( 'NONE', *, *, #66, .T. ) ;
#47 = AXIS2_PLACEMENT_3D ( 'NONE', #301, #167, #275 ) ;
#48 = DIRECTION ( 'NONE',  ( 0.000000000000000000, 0.000000000000000000, 1.000000000000000000 ) ) ;
#49 = CARTESIAN_POINT ( 'NONE',  ( -1.614212418857619014, 0.000000000000000000, 0.000000000000000000 ) ) ;
#50 = ADVANCED_FACE ( 'NONE', ( #292 ), #155, .F. ) ;
#51 = DIRECTION ( 'NONE',  ( -1.000000000000000000, -0.000000000000000000, -0.000000000000000000 ) ) ;
#52 = VERTEX_POINT ( 'NONE', #10 ) ;
#53 = CARTESIAN_POINT ( 'NONE',  ( -1.614212418857619014, 1.224646799147353256E-15, -10.00000000000000000 ) ) ;
#54 = LINE ( 'NONE', #221, #280 ) ;
#55 = CIRCLE ( 'NONE', #1, 10.00000000000000000 ) ;
#56 = CC_DESIGN_DATE_AND_TIME_ASSIGNMENT ( #219, #210, ( #143 ) ) ;
#57 = CIRCLE ( 'NONE', #79, 10.00000000000000000 ) ;
#58 = ADVANCED_FACE ( 'NONE', ( #106 ), #323, .T. ) ;
#59 = DIRECTION ( 'NONE',  ( 0.000000000000000000, 0.000000000000000000, 1.000000000000000000 ) ) ;
#60 = CARTESIAN_POINT ( 'NONE',  ( -2.500000000000000444, 10.00000000000000000, 0.000000000000000000 ) ) ;
#61 = DIRECTION ( 'NONE',  ( 1.000000000000000000, 0.000000000000000000, 0.000000000000000000 ) ) ;
#62 = CC_DESIGN_APPROVAL ( #8, ( #188 ) ) ;
#63 = DIRECTION ( 'NONE',  ( -1.000000000000000000, -0.000000000000000000, -0.000000000000000000 ) ) ;
#64 = DIRECTION ( 'NONE',  ( 0.000000000000000000, 0.000000000000000000, 1.000000000000000000 ) ) ;
#65 = DATE_AND_TIME ( #120, #170 ) ;
#66 = EDGE_CURVE ( 'NONE', #256, #77, #57, .T. ) ;
#67 =( NAMED_UNIT ( * ) PLANE_ANGLE_UNIT ( ) SI_UNIT ( $, .RADIAN. ) );
#68 =( GEOMETRIC_REPRESENTATION_CONTEXT ( 3 ) GLOBAL_UNCERTAINTY_ASSIGNED_CONTEXT ( ( #153 ) ) GLOBAL_UNIT_ASSIGNED_CONTEXT ( ( #291, #67, #91 ) ) REPRESENTATION_CONTEXT ( 'NONE', 'WORKASPACE' ) );
#69 = ORIENTED_EDGE ( 'NONE', *, *, #333, .T. ) ;
#70 = APPROVAL_DATE_TIME ( #260, #298 ) ;
#71 = CARTESIAN_POINT ( 'NONE',  ( -1.614212418857619014, 0.000000000000000000, 12.69999999999999929 ) ) ;
#72 = DIRECTION ( 'NONE',  ( -1.000000000000000000, -0.000000000000000000, -0.000000000000000000 ) ) ;
#73 = ORIENTED_EDGE ( 'NONE', *, *, #148, .T. ) ;
#74 = LINE ( 'NONE', #30, #98 ) ;
#75 = EDGE_CURVE ( 'NONE', #140, #256, #54, .T. ) ;
#76 = CIRCLE ( 'NONE', #11, 12.69999999999999929 ) ;
#77 = VERTEX_POINT ( 'NONE', #32 ) ;
#78 = APPROVAL_STATUS ( 'not_yet_approved' ) ;
#79 = AXIS2_PLACEMENT_3D ( 'NONE', #325, #193, #81 ) ;
#80 = VERTEX_POINT ( 'NONE', #322 ) ;
#81 = DIRECTION ( 'NONE',  ( 0.000000000000000000, 0.000000000000000000, 1.000000000000000000 ) ) ;
#82 = FACE_OUTER_BOUND ( 'NONE', #213, .T. ) ;
#83 = AXIS2_PLACEMENT_3D ( 'NONE', #250, #63, #249 ) ;
#84 = CARTESIAN_POINT ( 'NONE',  ( 2.500000000000000888, 0.000000000000000000, 0.000000000000000000 ) ) ;
#85 = PLANE ( 'NONE',  #175 ) ;
#86 = EDGE_CURVE ( 'NONE', #52, #140, #330, .T. ) ;
#87 = PRODUCT ( 'Q-OZHWP-R2-20-795-M', 'Q-OZHWP-R2-20-795-M', '', ( #20 ) ) ;
#88 = CARTESIAN_POINT ( 'NONE',  ( -1.614212418857619014, 0.000000000000000000, 0.000000000000000000 ) ) ;
#89 = CARTESIAN_POINT ( 'NONE',  ( 2.500000000000000888, 0.000000000000000000, 10.00000000000000000 ) ) ;
#90 = ORIENTED_EDGE ( 'NONE', *, *, #286, .F. ) ;
#91 =( NAMED_UNIT ( * ) SI_UNIT ( $, .STERADIAN. ) SOLID_ANGLE_UNIT ( ) );
#92 = AXIS2_PLACEMENT_3D ( 'NONE', #276, #171, #64 ) ;
#93 = PERSON_AND_ORGANIZATION_ROLE ( 'design_supplier' ) ;
#94 = DATE_TIME_ROLE ( 'creation_date' ) ;
#95 = AXIS2_PLACEMENT_3D ( 'NONE', #119, #285, #313 ) ;
#96 = ORIENTED_EDGE ( 'NONE', *, *, #217, .T. ) ;
#97 = MANIFOLD_SOLID_BREP ( 'Ðý×', #309 ) ;
#98 = VECTOR ( 'NONE', #220, 1000.000000000000000 ) ;
#99 = COORDINATED_UNIVERSAL_TIME_OFFSET ( 8, 0, .AHEAD. ) ;
#100 = ORIENTED_EDGE ( 'NONE', *, *, #251, .T. ) ;
#101 = EDGE_CURVE ( 'NONE', #266, #132, #163, .T. ) ;
#102 = ORIENTED_EDGE ( 'NONE', *, *, #233, .F. ) ;
#103 = PERSON_AND_ORGANIZATION ( #172, #274 ) ;
#104 = FACE_BOUND ( 'NONE', #242, .T. ) ;
#105 = CIRCLE ( 'NONE', #303, 10.00000000000000000 ) ;
#106 = FACE_OUTER_BOUND ( 'NONE', #107, .T. ) ;
#107 = EDGE_LOOP ( 'NONE', ( #227, #100, #212, #126 ) ) ;
#108 = DIRECTION ( 'NONE',  ( -0.000000000000000000, 0.000000000000000000, 1.000000000000000000 ) ) ;
#109 = DIRECTION ( 'NONE',  ( -1.000000000000000000, -0.000000000000000000, -0.000000000000000000 ) ) ;
#110 = PRODUCT_DEFINITION_SHAPE ( 'NONE', 'NONE',  #188 ) ;
#111 = DIRECTION ( 'NONE',  ( -1.000000000000000000, -0.000000000000000000, -0.000000000000000000 ) ) ;
#112 = EDGE_CURVE ( 'NONE', #80, #122, #74, .T. ) ;
#113 = PLANE ( 'NONE',  #329 ) ;
#114 = AXIS2_PLACEMENT_3D ( 'NONE', #9, #215, #125 ) ;
#115 = EDGE_CURVE ( 'NONE', #52, #77, #211, .T. ) ;
#116 = EDGE_CURVE ( 'NONE', #124, #80, #180, .T. ) ;
#117 = ORIENTED_EDGE ( 'NONE', *, *, #115, .T. ) ;
#118 = ORIENTED_EDGE ( 'NONE', *, *, #248, .F. ) ;
#119 = CARTESIAN_POINT ( 'NONE',  ( 0.000000000000000000, 0.000000000000000000, 0.000000000000000000 ) ) ;
#120 = CALENDAR_DATE ( 2020, 22, 12 ) ;
#121 = ORIENTED_EDGE ( 'NONE', *, *, #265, .T. ) ;
#122 = VERTEX_POINT ( 'NONE', #270 ) ;
#123 = CIRCLE ( 'NONE', #131, 10.00000000000000000 ) ;
#124 = VERTEX_POINT ( 'NONE', #273 ) ;
#125 = DIRECTION ( 'NONE',  ( 0.000000000000000000, 0.000000000000000000, 1.000000000000000000 ) ) ;
#126 = ORIENTED_EDGE ( 'NONE', *, *, #148, .F. ) ;
#127 = CARTESIAN_POINT ( 'NONE',  ( -3.000000000000000000, 10.00000000000000000, 0.000000000000000000 ) ) ;
#128 = DIRECTION ( 'NONE',  ( 0.000000000000000000, 0.000000000000000000, 1.000000000000000000 ) ) ;
#129 = DATE_AND_TIME ( #294, #197 ) ;
#130 = ADVANCED_FACE ( 'NONE', ( #134, #243 ), #268, .F. ) ;
#131 = AXIS2_PLACEMENT_3D ( 'NONE', #174, #109, #137 ) ;
#132 = VERTEX_POINT ( 'NONE', #327 ) ;
#133 = VECTOR ( 'NONE', #245, 1000.000000000000000 ) ;
#134 = FACE_OUTER_BOUND ( 'NONE', #45, .T. ) ;
#135 = DIRECTION ( 'NONE',  ( 0.000000000000000000, 0.000000000000000000, -1.000000000000000000 ) ) ;
#136 = CC_DESIGN_SECURITY_CLASSIFICATION ( #143, ( #39 ) ) ;
#137 = DIRECTION ( 'NONE',  ( 0.000000000000000000, 0.000000000000000000, 1.000000000000000000 ) ) ;
#138 = DIRECTION ( 'NONE',  ( 1.000000000000000000, 0.000000000000000000, 0.000000000000000000 ) ) ;
#139 = ADVANCED_FACE ( 'NONE', ( #82 ), #194, .F. ) ;
#140 = VERTEX_POINT ( 'NONE', #320 ) ;
#141 = AXIS2_PLACEMENT_3D ( 'NONE', #201, #177, #147 ) ;
#142 = DIRECTION ( 'NONE',  ( 0.000000000000000000, 0.000000000000000000, 1.000000000000000000 ) ) ;
#143 = SECURITY_CLASSIFICATION ( '', '', #165 ) ;
#144 = ADVANCED_FACE ( 'NONE', ( #104, #160 ), #36, .F. ) ;
#145 = PERSON_AND_ORGANIZATION_ROLE ( 'creator' ) ;
#146 = CALENDAR_DATE ( 2020, 22, 12 ) ;
#147 = DIRECTION ( 'NONE',  ( 0.000000000000000000, 0.000000000000000000, 1.000000000000000000 ) ) ;
#148 = EDGE_CURVE ( 'NONE', #122, #290, #241, .T. ) ;
#149 = APPROVAL_PERSON_ORGANIZATION ( #103, #154, #159 ) ;
#150 = VECTOR ( 'NONE', #324, 1000.000000000000000 ) ;
#151 = CALENDAR_DATE ( 2020, 22, 12 ) ;
#152 = EDGE_LOOP ( 'NONE', ( #7, #12 ) ) ;
#153 = UNCERTAINTY_MEASURE_WITH_UNIT (LENGTH_MEASURE( 1.000000000000000082E-05 ), #291, 'distance_accuracy_value', 'NONE');
#154 = APPROVAL ( #78, 'UNSPECIFIED' ) ;
#155 = CYLINDRICAL_SURFACE ( 'NONE', #208, 10.00000000000000000 ) ;
#156 = DIRECTION ( 'NONE',  ( 0.000000000000000000, 0.000000000000000000, -1.000000000000000000 ) ) ;
#157 = APPROVAL_PERSON_ORGANIZATION ( #284, #8, #288 ) ;
#158 = ORIENTED_EDGE ( 'NONE', *, *, #75, .F. ) ;
#159 = APPROVAL_ROLE ( '' ) ;
#160 = FACE_OUTER_BOUND ( 'NONE', #319, .T. ) ;
#161 = ORIENTED_EDGE ( 'NONE', *, *, #33, .F. ) ;
#162 = CC_DESIGN_DATE_AND_TIME_ASSIGNMENT ( #257, #94, ( #188 ) ) ;
#163 = LINE ( 'NONE', #53, #133 ) ;
#164 = ORIENTED_EDGE ( 'NONE', *, *, #277, .F. ) ;
#165 = SECURITY_CLASSIFICATION_LEVEL ( 'unclassified' ) ;
#166 = CARTESIAN_POINT ( 'NONE',  ( -1.614212418857619014, 1.224646799147353256E-15, -10.00000000000000000 ) ) ;
#167 = DIRECTION ( 'NONE',  ( -1.000000000000000000, -0.000000000000000000, -0.000000000000000000 ) ) ;
#168 = DIRECTION ( 'NONE',  ( -1.000000000000000000, -0.000000000000000000, -0.000000000000000000 ) ) ;
#169 = DIRECTION ( 'NONE',  ( -0.000000000000000000, 0.000000000000000000, 1.000000000000000000 ) ) ;
#170 = LOCAL_TIME ( 17, 17, 15.00000000000000000, #42 ) ;
#171 = DIRECTION ( 'NONE',  ( -1.000000000000000000, -0.000000000000000000, -0.000000000000000000 ) ) ;
#172 = PERSON ( 'UNSPECIFIED', 'UNSPECIFIED', 'UNSPECIFIED', ('UNSPECIFIED'), ('UNSPECIFIED'), ('UNSPECIFIED') ) ;
#173 = ORIENTED_EDGE ( 'NONE', *, *, #277, .T. ) ;
#174 = CARTESIAN_POINT ( 'NONE',  ( 2.999999999999999112, 0.000000000000000000, 0.000000000000000000 ) ) ;
#175 = AXIS2_PLACEMENT_3D ( 'NONE', #60, #138, #17 ) ;
#176 = APPLICATION_PROTOCOL_DEFINITION ( 'international standard', 'config_control_design', 1994, #261 ) ;
#177 = DIRECTION ( 'NONE',  ( -1.000000000000000000, -0.000000000000000000, -0.000000000000000000 ) ) ;
#178 = CYLINDRICAL_SURFACE ( 'NONE', #35, 12.69999999999999929 ) ;
#179 = APPROVAL_STATUS ( 'not_yet_approved' ) ;
#180 = CIRCLE ( 'NONE', #235, 12.69999999999999929 ) ;
#181 = ORIENTED_EDGE ( 'NONE', *, *, #116, .T. ) ;
#182 = ADVANCED_FACE ( 'NONE', ( #332 ), #85, .F. ) ;
#183 = ORIENTED_EDGE ( 'NONE', *, *, #217, .F. ) ;
#184 = DIRECTION ( 'NONE',  ( -1.000000000000000000, -0.000000000000000000, -0.000000000000000000 ) ) ;
#185 = EDGE_LOOP ( 'NONE', ( #90, #118 ) ) ;
#186 = COORDINATED_UNIVERSAL_TIME_OFFSET ( 8, 0, .AHEAD. ) ;
#187 = CIRCLE ( 'NONE', #92, 10.00000000000000000 ) ;
#188 = PRODUCT_DEFINITION ( 'UNKNOWN', '', #39, #190 ) ;
#189 = ORIENTED_EDGE ( 'NONE', *, *, #248, .T. ) ;
#190 = DESIGN_CONTEXT ( 'detailed design', #283, 'design' ) ;
#191 = ORIENTED_EDGE ( 'NONE', *, *, #112, .T. ) ;
#192 = ADVANCED_FACE ( 'NONE', ( #334 ), #199, .F. ) ;
#193 = DIRECTION ( 'NONE',  ( -1.000000000000000000, -0.000000000000000000, -0.000000000000000000 ) ) ;
#194 = CYLINDRICAL_SURFACE ( 'NONE', #47, 10.00000000000000000 ) ;
#195 = CARTESIAN_POINT ( 'NONE',  ( -2.500000000000000444, 0.000000000000000000, 0.000000000000000000 ) ) ;
#196 = DIRECTION ( 'NONE',  ( 0.000000000000000000, 0.000000000000000000, 1.000000000000000000 ) ) ;
#197 = LOCAL_TIME ( 17, 17, 15.00000000000000000, #99 ) ;
#198 = FACE_OUTER_BOUND ( 'NONE', #25, .T. ) ;
#199 = CYLINDRICAL_SURFACE ( 'NONE', #216, 10.00000000000000000 ) ;
#200 = ORIENTED_EDGE ( 'NONE', *, *, #333, .F. ) ;
#201 = CARTESIAN_POINT ( 'NONE',  ( -3.000000000000000000, 0.000000000000000000, 0.000000000000000000 ) ) ;
#202 = PERSON_AND_ORGANIZATION ( #172, #274 ) ;
#203 = CC_DESIGN_PERSON_AND_ORGANIZATION_ASSIGNMENT ( #202, #41, ( #87 ) ) ;
#204 = AXIS2_PLACEMENT_3D ( 'NONE', #127, #239, #156 ) ;
#205 = PERSON_AND_ORGANIZATION_ROLE ( 'creator' ) ;
#206 = CC_DESIGN_PERSON_AND_ORGANIZATION_ASSIGNMENT ( #232, #145, ( #39 ) ) ;
#207 = APPLICATION_PROTOCOL_DEFINITION ( 'international standard', 'config_control_design', 1994, #283 ) ;
#208 = AXIS2_PLACEMENT_3D ( 'NONE', #49, #43, #128 ) ;
#209 = EDGE_LOOP ( 'NONE', ( #238, #164 ) ) ;
#210 = DATE_TIME_ROLE ( 'classification_date' ) ;
#211 = LINE ( 'NONE', #166, #150 ) ;
#212 = ORIENTED_EDGE ( 'NONE', *, *, #33, .T. ) ;
#213 = EDGE_LOOP ( 'NONE', ( #5, #189, #96, #121 ) ) ;
#214 = CALENDAR_DATE ( 2020, 22, 12 ) ;
#215 = DIRECTION ( 'NONE',  ( -1.000000000000000000, -0.000000000000000000, -0.000000000000000000 ) ) ;
#216 = AXIS2_PLACEMENT_3D ( 'NONE', #88, #246, #142 ) ;
#217 = EDGE_CURVE ( 'NONE', #321, #311, #223, .T. ) ;
#218 = ORIENTED_EDGE ( 'NONE', *, *, #233, .T. ) ;
#219 = DATE_AND_TIME ( #214, #16 ) ;
#220 = DIRECTION ( 'NONE',  ( -1.000000000000000000, -0.000000000000000000, -0.000000000000000000 ) ) ;
#221 = CARTESIAN_POINT ( 'NONE',  ( -1.614212418857619014, 0.000000000000000000, 10.00000000000000000 ) ) ;
#222 = CC_DESIGN_APPROVAL ( #154, ( #143 ) ) ;
#223 = LINE ( 'NONE', #252, #247 ) ;
#224 = CC_DESIGN_PERSON_AND_ORGANIZATION_ASSIGNMENT ( #231, #205, ( #188 ) ) ;
#225 = FACE_OUTER_BOUND ( 'NONE', #23, .T. ) ;
#226 = DIRECTION ( 'NONE',  ( -1.000000000000000000, -0.000000000000000000, -0.000000000000000000 ) ) ;
#227 = ORIENTED_EDGE ( 'NONE', *, *, #112, .F. ) ;
#228 = ADVANCED_FACE ( 'NONE', ( #198 ), #37, .F. ) ;
#229 = CIRCLE ( 'NONE', #141, 12.69999999999999929 ) ;
#230 = CARTESIAN_POINT ( 'NONE',  ( -1.614212418857619014, 0.000000000000000000, 0.000000000000000000 ) ) ;
#231 = PERSON_AND_ORGANIZATION ( #172, #274 ) ;
#232 = PERSON_AND_ORGANIZATION ( #172, #274 ) ;
#233 = EDGE_CURVE ( 'NONE', #132, #311, #312, .T. ) ;
#234 = LINE ( 'NONE', #71, #289 ) ;
#235 = AXIS2_PLACEMENT_3D ( 'NONE', #237, #184, #48 ) ;
#236 = EDGE_LOOP ( 'NONE', ( #317, #31, #218, #183 ) ) ;
#237 = CARTESIAN_POINT ( 'NONE',  ( 3.000000000000000000, 0.000000000000000000, 0.000000000000000000 ) ) ;
#238 = ORIENTED_EDGE ( 'NONE', *, *, #66, .F. ) ;
#239 = DIRECTION ( 'NONE',  ( 1.000000000000000000, 0.000000000000000000, 0.000000000000000000 ) ) ;
#240 = ORIENTED_EDGE ( 'NONE', *, *, #75, .T. ) ;
#241 = CIRCLE ( 'NONE', #114, 12.69999999999999929 ) ;
#242 = EDGE_LOOP ( 'NONE', ( #28, #102 ) ) ;
#243 = FACE_BOUND ( 'NONE', #152, .T. ) ;
#244 = CC_DESIGN_PERSON_AND_ORGANIZATION_ASSIGNMENT ( #267, #263, ( #143 ) ) ;
#245 = DIRECTION ( 'NONE',  ( -1.000000000000000000, -0.000000000000000000, -0.000000000000000000 ) ) ;
#246 = DIRECTION ( 'NONE',  ( -1.000000000000000000, -0.000000000000000000, -0.000000000000000000 ) ) ;
#247 = VECTOR ( 'NONE', #168, 1000.000000000000000 ) ;
#248 = EDGE_CURVE ( 'NONE', #266, #321, #55, .T. ) ;
#249 = DIRECTION ( 'NONE',  ( 0.000000000000000000, 0.000000000000000000, 1.000000000000000000 ) ) ;
#250 = CARTESIAN_POINT ( 'NONE',  ( -3.000000000000000444, 0.000000000000000000, 0.000000000000000000 ) ) ;
#251 = EDGE_CURVE ( 'NONE', #80, #124, #76, .T. ) ;
#252 = CARTESIAN_POINT ( 'NONE',  ( -1.614212418857619014, 0.000000000000000000, 10.00000000000000000 ) ) ;
#253 = AXIS2_PLACEMENT_3D ( 'NONE', #14, #51, #299 ) ;
#254 = CARTESIAN_POINT ( 'NONE',  ( -2.500000000000000444, 1.224646799147353256E-15, -10.00000000000000000 ) ) ;
#255 = PERSON_AND_ORGANIZATION ( #172, #274 ) ;
#256 = VERTEX_POINT ( 'NONE', #89 ) ;
#257 = DATE_AND_TIME ( #146, #318 ) ;
#258 = ADVANCED_BREP_SHAPE_REPRESENTATION ( 'Q-OZHWP-R2-20-795-M', ( #97, #95 ), #68 ) ;
#259 = ORIENTED_EDGE ( 'NONE', *, *, #272, .F. ) ;
#260 = DATE_AND_TIME ( #151, #4 ) ;
#261 = APPLICATION_CONTEXT ( 'configuration controlled 3d designs of mechanical parts and assemblies' ) ;
#262 = ORIENTED_EDGE ( 'NONE', *, *, #115, .F. ) ;
#263 = PERSON_AND_ORGANIZATION_ROLE ( 'classification_officer' ) ;
#264 = EDGE_LOOP ( 'NONE', ( #297, #117, #173, #158 ) ) ;
#265 = EDGE_CURVE ( 'NONE', #311, #132, #187, .T. ) ;
#266 = VERTEX_POINT ( 'NONE', #254 ) ;
#267 = PERSON_AND_ORGANIZATION ( #172, #274 ) ;
#268 = PLANE ( 'NONE',  #304 ) ;
#269 = ORIENTED_EDGE ( 'NONE', *, *, #116, .F. ) ;
#270 = CARTESIAN_POINT ( 'NONE',  ( -3.000000000000000000, 1.555301434917138433E-15, -12.69999999999999929 ) ) ;
#271 = CARTESIAN_POINT ( 'NONE',  ( -1.614212418857619014, 0.000000000000000000, 0.000000000000000000 ) ) ;
#272 = EDGE_CURVE ( 'NONE', #140, #52, #123, .T. ) ;
#273 = CARTESIAN_POINT ( 'NONE',  ( 3.000000000000000000, 0.000000000000000000, 12.69999999999999929 ) ) ;
#274 = ORGANIZATION ( 'UNSPECIFIED', 'UNSPECIFIED', '' ) ;
#275 = DIRECTION ( 'NONE',  ( 0.000000000000000000, 0.000000000000000000, 1.000000000000000000 ) ) ;
#276 = CARTESIAN_POINT ( 'NONE',  ( -3.000000000000000444, 0.000000000000000000, 0.000000000000000000 ) ) ;
#277 = EDGE_CURVE ( 'NONE', #77, #256, #105, .T. ) ;
#278 = CARTESIAN_POINT ( 'NONE',  ( -2.500000000000000444, 0.000000000000000000, 10.00000000000000000 ) ) ;
#279 = CIRCLE ( 'NONE', #302, 10.00000000000000000 ) ;
#280 = VECTOR ( 'NONE', #72, 1000.000000000000000 ) ;
#281 = DIRECTION ( 'NONE',  ( -1.000000000000000000, -0.000000000000000000, -0.000000000000000000 ) ) ;
#282 = DIRECTION ( 'NONE',  ( 0.000000000000000000, 0.000000000000000000, -1.000000000000000000 ) ) ;
#283 = APPLICATION_CONTEXT ( 'configuration controlled 3d designs of mechanical parts and assemblies' ) ;
#284 = PERSON_AND_ORGANIZATION ( #172, #274 ) ;
#285 = DIRECTION ( 'NONE',  ( 0.000000000000000000, 0.000000000000000000, 1.000000000000000000 ) ) ;
#286 = EDGE_CURVE ( 'NONE', #321, #266, #279, .T. ) ;
#287 = APPROVAL_DATE_TIME ( #65, #8 ) ;
#288 = APPROVAL_ROLE ( '' ) ;
#289 = VECTOR ( 'NONE', #296, 1000.000000000000000 ) ;
#290 = VERTEX_POINT ( 'NONE', #306 ) ;
#291 =( LENGTH_UNIT ( ) NAMED_UNIT ( * ) SI_UNIT ( .MILLI., .METRE. ) );
#292 = FACE_OUTER_BOUND ( 'NONE', #264, .T. ) ;
#293 = CARTESIAN_POINT ( 'NONE',  ( 2.999999999999999112, 12.69999999999999929, 0.000000000000000000 ) ) ;
#294 = CALENDAR_DATE ( 2020, 22, 12 ) ;
#295 = CC_DESIGN_APPROVAL ( #298, ( #39 ) ) ;
#296 = DIRECTION ( 'NONE',  ( -1.000000000000000000, -0.000000000000000000, -0.000000000000000000 ) ) ;
#297 = ORIENTED_EDGE ( 'NONE', *, *, #86, .F. ) ;
#298 = APPROVAL ( #21, 'UNSPECIFIED' ) ;
#299 = DIRECTION ( 'NONE',  ( 0.000000000000000000, 0.000000000000000000, 1.000000000000000000 ) ) ;
#300 = PRODUCT_RELATED_PRODUCT_CATEGORY ( 'detail', '', ( #87 ) ) ;
#301 = CARTESIAN_POINT ( 'NONE',  ( -1.614212418857619014, 0.000000000000000000, 0.000000000000000000 ) ) ;
#302 = AXIS2_PLACEMENT_3D ( 'NONE', #195, #305, #135 ) ;
#303 = AXIS2_PLACEMENT_3D ( 'NONE', #84, #281, #59 ) ;
#304 = AXIS2_PLACEMENT_3D ( 'NONE', #293, #13, #108 ) ;
#305 = DIRECTION ( 'NONE',  ( 1.000000000000000000, 0.000000000000000000, 0.000000000000000000 ) ) ;
#306 = CARTESIAN_POINT ( 'NONE',  ( -3.000000000000000000, 0.000000000000000000, 12.69999999999999929 ) ) ;
#307 = CARTESIAN_POINT ( 'NONE',  ( -2.500000000000000444, 0.000000000000000000, 0.000000000000000000 ) ) ;
#308 = APPROVAL_PERSON_ORGANIZATION ( #316, #298, #40 ) ;
#309 = CLOSED_SHELL ( 'NONE', ( #326, #192, #50, #314, #228, #139, #144, #58, #130, #182 ) ) ;
#310 = CARTESIAN_POINT ( 'NONE',  ( -1.614212418857619014, 0.000000000000000000, 0.000000000000000000 ) ) ;
#311 = VERTEX_POINT ( 'NONE', #18 ) ;
#312 = CIRCLE ( 'NONE', #83, 10.00000000000000000 ) ;
#313 = DIRECTION ( 'NONE',  ( 1.000000000000000000, 0.000000000000000000, 0.000000000000000000 ) ) ;
#314 = ADVANCED_FACE ( 'NONE', ( #38 ), #113, .F. ) ;
#315 = DIRECTION ( 'NONE',  ( -1.000000000000000000, -0.000000000000000000, -0.000000000000000000 ) ) ;
#316 = PERSON_AND_ORGANIZATION ( #172, #274 ) ;
#317 = ORIENTED_EDGE ( 'NONE', *, *, #286, .T. ) ;
#318 = LOCAL_TIME ( 17, 17, 15.00000000000000000, #3 ) ;
#319 = EDGE_LOOP ( 'NONE', ( #69, #73 ) ) ;
#320 = CARTESIAN_POINT ( 'NONE',  ( 2.999999999999999112, 0.000000000000000000, 10.00000000000000000 ) ) ;
#321 = VERTEX_POINT ( 'NONE', #278 ) ;
#322 = CARTESIAN_POINT ( 'NONE',  ( 3.000000000000000000, 1.555301434917138433E-15, -12.69999999999999929 ) ) ;
#323 = CYLINDRICAL_SURFACE ( 'NONE', #22, 12.69999999999999929 ) ;
#324 = DIRECTION ( 'NONE',  ( -1.000000000000000000, -0.000000000000000000, -0.000000000000000000 ) ) ;
#325 = CARTESIAN_POINT ( 'NONE',  ( 2.500000000000000888, 0.000000000000000000, 0.000000000000000000 ) ) ;
#326 = ADVANCED_FACE ( 'NONE', ( #225 ), #178, .T. ) ;
#327 = CARTESIAN_POINT ( 'NONE',  ( -3.000000000000000444, 1.224646799147353256E-15, -10.00000000000000000 ) ) ;
#328 = DIRECTION ( 'NONE',  ( 0.000000000000000000, 0.000000000000000000, 1.000000000000000000 ) ) ;
#329 = AXIS2_PLACEMENT_3D ( 'NONE', #15, #331, #169 ) ;
#330 = CIRCLE ( 'NONE', #253, 10.00000000000000000 ) ;
#331 = DIRECTION ( 'NONE',  ( -1.000000000000000000, 0.000000000000000000, -0.000000000000000000 ) ) ;
#332 = FACE_OUTER_BOUND ( 'NONE', #185, .T. ) ;
#333 = EDGE_CURVE ( 'NONE', #290, #122, #229, .T. ) ;
#334 = FACE_OUTER_BOUND ( 'NONE', #236, .T. ) ;
#335 = ORIENTED_EDGE ( 'NONE', *, *, #251, .F. ) ;
ENDSEC;
END-ISO-10303-21;
